Speak No Evil

(/) Slide Up  (\) Slide Down  (h) Hammer On  (p) Pull Off  (b) Bend (r) Release (v) Vibrato


E|--------
B|--4--6--
G|--------
D|--------
A|--------
E|--------



E|--7--8---5--6-----6--8--9---
B|--8--8---6--6--7--6--8--9---
G|--7--10--5--8--7--6--8--9---
D|--7--8---5--6--7--6--8--11--
A|--7--10--5--8-----6--8--9---
E|-----8------6--5--6--8--10--



E|----------------------------------------------
B|--9--10------10-------------------------------
G|---------11------10------12--9--12--8------8--
D|---------------------12----------------10-----
A|----------------------------------------------
E|----------------------------------------------



E|------13--11--13------6--12--11--------8--6--
B|--13--11--11--13--10--5--11--11--8--7--7--8--
G|--12--11--11--13--10--5--11--11--8--7--7--8--
D|--13--10--10--12--8---4--10--10--6--6--6--8--
A|--12--11----------10-------------8--------6--
E|----------10------------------------6--6-----



E|--------------------------------
B|---------------------9--10--11--
G|------8--10--11--12-------------
D|--12----------------------------
A|--------------------------------
E|--------------------------------



E|------------------11----------11--11--17--15-----------------------------------------
B|--------------13----------11------------------------------11--------------11---------
G|------10--12----------10----------------------12--12----------12--12----------12-----
D|--10--------------------------------------------------10--------------10-------------
A|-------------------------------------------------------------------------------------
E|-------------------------------------------------------------------------------------
http://www.guitartabcreator.com
Guitar Tab Creator is intended to store guitar tab created through the tool. It currently does not support in-line text editing. Any text you place in here will be lost. If you need to comment on your tab, please use the "Tab Notes" section located below.