Skyfall

(/) Slide Up  (\) Slide Down  (h) Hammer On  (p) Pull Off  (b) Bend (r) Release (v) Vibrato
E|------------------------------------
B|------------------------10----------
G|--12--8------8--------------10------
D|---------10-----10------------------
A|--------------------11----------11--
E|------------------------------------



E|-------------------------------------------------------------------------------
B|-------------------------------------------------------------------------------
G|------12--8--12------12-----12---------8-----------5-----------2---------------
D|--10-------------12------9----------------------------------------1---------6--
A|-----------------------------------10-----------6-----------3-----------10-----
E|--------------------------------8---------6--4--------3--1-----------8---------



E|--------------
B|--------------
G|--------------
D|--------------
A|--------------
E|--10--11--11--



E|---------------------
B|---------------------
G|----------8--12------
D|------10---------10--
A|--10-----------------
E|---------------------



E|------------------
B|--8---9---10--9---
G|--8---8---10--8---
D|--10--10--10--10--
A|------------------
E|------------------
http://www.guitartabcreator.com
Guitar Tab Creator is intended to store guitar tab created through the tool. It currently does not support in-line text editing. Any text you place in here will be lost. If you need to comment on your tab, please use the "Tab Notes" section located below.