Nihawend Lunga

(/) Slide Up  (\) Slide Down  (h) Hammer On  (p) Pull Off  (b) Bend (r) Release (v) Vibrato


E|--------------------------------------
B|--------------------------------------
G|-----------5--7--8--7--5--7-----------
D|--5--7--8--------------------8--8--7--
A|--------------------------------------
E|--------------------------------------



E|--------------------------5--6--5--------------------------------------------
B|--------------------7--8-----------8--8--7-----------------------7--7--8--8--
G|-----------5--7--8--------------------------8--7--5--7--7--8--8--------------
D|--5--7--8--------------------------------------------------------------------
A|-----------------------------------------------------------------------------
E|-----------------------------------------------------------------------------



E|--5--6--5--------------5--6--8--6--5--------------------------------------------------
B|-----------8--7--7--8-----------------8--7--------------------------------------------
G|--------------------------------------------8--7--5--7--8--7--5-----5-----------------
D|-----------------------------------------------------------------8-----8--7--5-----5--
A|--------------------------------------------------------------------------------5-----
E|--------------------------------------------------------------------------------------



E|--------------------------------------------------
B|--------6--8--6--------------------6--8--6--------
G|--7--8-----------8--7--5-----7--8-----------8--7--
D|--------------------------8-----------------------
A|--------------------------------------------------
E|--------------------------------------------------



E|--------------------------------------
B|--------------------8--7--8-----------
G|--7--6--7--------------------8--7--5--
D|-----------8--7--5--------------------
A|--------------------------------------
E|--------------------------------------



E|--6--8--6--5--5--6--5--------5-----------------------------------------------------------------
B|-----------------------8--8-----8--7--7--8--7--------------------------------------------------
G|-----------------------------------------------8--7--8--7--5-----------5--7--8--7--5-----------
D|--------------------------------------------------------------8--7--8-----------------8--7--5--
A|-----------------------------------------------------------------------------------------------
E|-----------------------------------------------------------------------------------------------
http://www.guitartabcreator.com
Guitar Tab Creator is intended to store guitar tab created through the tool. It currently does not support in-line text editing. Any text you place in here will be lost. If you need to comment on your tab, please use the "Tab Notes" section located below.