Manteca

(/) Slide Up  (\) Slide Down  (h) Hammer On  (p) Pull Off  (b) Bend (r) Release (v) Vibrato

E|-----------------------------
B|-----------------------------
G|-----------------------------
D|-----6--6--8--8--6-----8--6--
A|--8-----------------8--------
E|-----------------------------



E|--------------------------------------------
B|--------------------------------------------
G|-----------------------------------5--6--8--
D|--8--6-----------------5--6--7--8-----------
A|--------9--8--6--7--8-----------------------
E|--------------------------------------------
http://www.guitartabcreator.com
Guitar Tab Creator is intended to store guitar tab created through the tool. It currently does not support in-line text editing. Any text you place in here will be lost. If you need to comment on your tab, please use the "Tab Notes" section located below.