Joy

(/) Slide Up  (\) Slide Down  (h) Hammer On  (p) Pull Off  (b) Bend (r) Release (v) Vibrato
E|----------8---------------------------------10--8------------------------------
B|-------------10--8h10p8------8--10-----------------10--8------9-------------8--
G|------10-----------------10-------------10----------------10-----10------------
D|--10--------------------------------10-------------------------------11--8-----
A|-------------------------------------------------------------------------------
E|-------------------------------------------------------------------------------



E|------------------------------------------------------------------------
B|------------13----------------------11--10------------------------------
G|--10h12p10------10--10--10------10----------10----------10------12--10--
D|----------------------------10------------------12--10------12----------
A|------------------------------------------------------------------------
E|------------------------------------------------------------------------



E|-------------------------9-------------------------
B|--11--9---------------------11--9p11h9------9--11--
G|---------11--10------11-----------------11---------
D|-----------------11--------------------------------
A|---------------------------------------------------
E|---------------------------------------------------



E|----------11--9-----------------------------------------------------------
B|-----------------11--9------10-------------9--------------14--------------
G|------11----------------11------11------------11--13--11------11--11--11--
D|--11--------------------------------12--9---------------------------------
A|--------------------------------------------------------------------------
E|--------------------------------------------------------------------------



E|--------------------------------------
B|----------12--11----------------------
G|------11----------11----------13--11--
D|--11------------------13--11----------
A|--------------------------------------
E|--------------------------------------



E|---------------------------------11--10--------------------------------9----------
B|--12--10-----------------10--13----------12--10------11-------------------13--11--
G|----------9--12--10--11--------------------------12------10--9------9-------------
D|----------------------------------------------------------------12----------------
A|----------------------------------------------------------------------------------
E|----------------------------------------------------------------------------------



E|------------------------------------9------------------------------------
B|--13--10----------9--------------------12--10--11---------------------9--
G|----------12--10-----8-----------------------------12--10--8--10--12-----
D|------------------------12--10--12---------------------------------------
A|-------------------------------------------------------------------------
E|-------------------------------------------------------------------------



E|----------9-----------------9--------------------------------------------8--
B|--11--12-----11--9------10-----11--9------10--11--10------------------------
G|--------------------12----------------11--------------12--10--9------10-----
D|-----------------------------------------------------------------10---------
A|----------------------------------------------------------------------------
E|----------------------------------------------------------------------------
http://www.guitartabcreator.com
Guitar Tab Creator is intended to store guitar tab created through the tool. It currently does not support in-line text editing. Any text you place in here will be lost. If you need to comment on your tab, please use the "Tab Notes" section located below.