goodbye pork

(/) Slide Up  (\) Slide Down  (h) Hammer On  (p) Pull Off  (b) Bend (r) Release (v) Vibrato


E|--------------------------------------------------------------------------------------
B|--------------------------------------------------------------------------------------
G|--------------------------------------------------------------------------------------
D|--------6-----6--8--6-----------6-----------------6-----6--9--8-----------6-----------
A|-----8-----8-----------8-----8-----8--6--8-----8-----8-----------8--6--8-----8--6--8--
E|--8-----------------------9-----------------8-----------------------------------------



E|-----------------------------------------------------------------------------------
B|------------------------------------6----------------------------------------------
G|-----4/5--8--------------------4\5-----------8--5----------------------------------
D|----------------6--8--6-----6-------------8--------6--------6--9--------9----------
A|--8----------8-----------8-------------8--------------7--4--------8--7-----10--11--
E|-----------------------------------------------------------------------------------



E|-----------------------------------------------------------------------
B|-----------------------------------------------------------------------
G|-----------------------------------------------------------------------
D|-----9--8---------8-------------9--8----------------10--8--6-----------
A|--8--------11--8-----11--8------------11--8--11--8------------8--6-----
E|----------------------------11--------------------------------------8--
http://www.guitartabcreator.com
Guitar Tab Creator is intended to store guitar tab created through the tool. It currently does not support in-line text editing. Any text you place in here will be lost. If you need to comment on your tab, please use the "Tab Notes" section located below.