GBPPH

(/) Slide Up  (\) Slide Down  (h) Hammer On  (p) Pull Off  (b) Bend (r) Release (v) Vibrato


E|---------------------------------------------------------------------------------------
B|---------------------------------------------------------------------------------------
G|---------------------------------------------------------------------------------------
D|--------3-----3--5b5-----------3-----------------3-----3--4b4-----------3--------------
A|-----5-----5----------5-----5-----5--3--5-----5-----5----------5--3--5-----5--3--5-----
E|--5----------------------6-----------------5-------------------------------------------



E|-----5--8-------------------5--10--------8--5--------------------------------
B|-----------------------------------------------------------------------------
G|-----------------------------------------------------------------------------
D|--------------3--5b5-----3------------5--------3--------3--6--------5-----3--
A|--5--------5----------5------------5--------------4--1--------5--4-----7-----
E|-----------------------------------------------------------------------------



E|-----------------------------------------------------------------
B|-----------------------------------------------------------------
G|-----------------------------------------------------------------
D|-----6--5--3-----5--3--------6--5--3-----3-----7--5--3-----------
A|--5-----------5--------7--5-----------5-----5-----------5--3-----
E|--------------------------------------------------------------5--
http://www.guitartabcreator.com
Guitar Tab Creator is intended to store guitar tab created through the tool. It currently does not support in-line text editing. Any text you place in here will be lost. If you need to comment on your tab, please use the "Tab Notes" section located below.