Esta Noche

(/) Slide Up  (\) Slide Down  (h) Hammer On  (p) Pull Off  (b) Bend (r) Release (v) Vibrato
E|-----------------------------------------------------
B|-----------------------------------------------------
G|-----------------------------------------------------
D|--------5--------5-----------------5--------5-----6--
A|--0--0--4--0--0--4-----------0--0--4--0--0--4--0--5--
E|--------------------0--3--0--------------------------



E|-----------------------------------------------------
B|-----------------------------------------------------
G|--------------------------------------------------2--
D|--2--2--5--2--2--5-----------------5-----------3-----
A|--------1--------1-----------0--0--4--0--0--4--------
E|--------------------0--3--0--------------------------



E|-----------------------5--
B|--------6-----------5--6--
G|-----7--------7--6-----7--
D|--7--------8-----------7--
A|-----------------------5--
E|--------------------------



E|-----------------------------------
B|-----------------------------------
G|-----------------------------------
D|--7-----------5-----5--8--7--6--7--
A|-----8--5--8-----7-----------------
E|-----------------------------------



E|--------------------------------------------
B|--------------------------------------------
G|--------------------------------6--7--------
D|--8-----7-----------5-----5--8--------7-----
A|-----4-----8--5--8-----7-----------------8--
E|--------------------------------------------



E|--------------------------------------------------------------------
B|--------------------------------------------------------------------
G|--------------------------------------------------------------------
D|-----------------5--------------5-----------------5--------------5--
A|-----------5--8-----8-----4--7-----7--------5--8-----8-----4--7-----
E|--6--6--5--------------6--------------6--5--------------6-----------



E|--------------------------------------------------
B|--------------------------------------------------
G|--------------------------------------------------
D|-----------5--------------------------------------
A|--0--5--8-----8--7--5-----5--7--8--7--5--7--8--7--
E|-----------------------8--------------------------



E|-----------5-----------------------------------------5--8--7--5--
B|--------6-----8--6--5-----------------------------6--------------
G|-----7-----------------7--5--7-----4--5--------7-----------------
D|--8-----------------------------7--------7--8--------------------
A|-----------------------------------------------------------------
E|-----------------------------------------------------------------



E|-----------5-----6--5-----5--
B|--8--6--8-----8--------8-----
G|-----------------------------
D|-----------------------------
A|-----------------------------
E|-----------------------------



E|--------------5-----------------------------------------------------------------
B|-----------6-----8--6--5--------------------------------------------------------
G|-----5--7-----------------6--5-----------------------5--6-----------------------
D|--7-----------------------------8--7--5--7--5--7--8--------7--7-----7--7-----7--
A|-----------------------------------------------------------------0--------0--0--
E|--------------------------------------------------------------------------------



E|------------------------------------------------------------
B|------------------------------------------------------------
G|---------------------------------------3--2-----------------
D|--3--7--3--7--8---7--5--2--5--2-----2--------5-----2--5--2--
A|--5--8--5--8--10--8--7--4--7--4--4--4--5--3--1--4--3--7--3--
E|---------------------------------6--------------6-----------



E|-----------------------------------------------------------------------------------
B|-----------------------------------------------------------------5-----------------
G|--------------------------------------------------5--------7--6-----6--------------
D|--7--6--7--8--7-----------5-----5--7--7--7--7--8-----5--7--------------7-----7-----
A|-----------------8--5--8-----8--------------------------------------------8-----8--
E|-----------------------------------------------------------------------------------



E|--------------------------------------------------------------6--5--
B|--------------------------------------------------------6--5--------
G|--------------------------------------------------7--6--------------
D|-----7--------7-----------------------5--7--8--7--------------------
A|--8-----8--5-----5--4--7-----5--7--8--------------------------------
E|--------------------------9-----------------------------------------



E|-----------------------------------------------------------------------5--------
B|--5--------------------------------------------------------------5--------8-----
G|-----7-----7--------------------------------------------------------7-----------
D|--------8-----8--7--8--7--6--7--7--6--7--8--7--6--7--8--7--7--8-----------------
A|--------------------------------------------------------------------------------
E|--------------------------------------------------------------------------------



E|-----------------------
B|--5--8-----5-----------
G|--------7--------7-----
D|--------------7-----5--
A|-----------------------
E|-----------------------



E|-----------------------------------------------------------------------------------------------
B|--------------------7--6--5--6--8--6--5--------5--------5-----5-----5-----5--------6--5--8--6--
G|-----------------6-----------------------7--7-----7--6-----7-----7-----7-----6-----------------
D|-----8--5--4--8-----------------------------------------------------------------7--------------
A|--5--------------------------------------------------------------------------------------------
E|-----------------------------------------------------------------------------------------------



E|--5--5--5--3-----------------
B|--5--5--5--5--6--5-----------
G|--------------6--6--6--3-----
D|--------------------8--5--7--
A|--------------------------8--
E|-----------------------------



E|-----------------------------------------------------
B|-----------------------------------------------------
G|-----------------------------------------------------
D|--5--------------7--5-----5--------------7--5--------
A|-----8-----5--8--------8-----8-----5--8--------8--5--
E|--------8-----------------------8--------------------
http://www.guitartabcreator.com
Guitar Tab Creator is intended to store guitar tab created through the tool. It currently does not support in-line text editing. Any text you place in here will be lost. If you need to comment on your tab, please use the "Tab Notes" section located below.