E

(/) Slide Up  (\) Slide Down  (h) Hammer On  (p) Pull Off  (b) Bend (r) Release (v) Vibrato


E|-------------------------------------------------------------------------
B|-------------------------------------------------------------------------
G|-------------------------------------7--8--9--8--7--------------------9--
D|--10-----7--10--10--10--10-----7--7-----------------10--10-----7--10-----
A|------9---------------------9-------------------------------9------------
E|-------------------------------------------------------------------------



E|---------------------------------------------------------------------------------
B|---------------------------------------------------------------------------------
G|--10--7--8--7-------------------------------------------------7--8--9--8--7------
D|---------------10--10--10--10-----7--10--10--10--10-----7--7-----------------10--
A|-------------------------------9---------------------9---------------------------
E|---------------------------------------------------------------------------------



E|----------------------------------------------------
B|----------------------------------------------------
G|----------------9--10--7--8--7----------8--8--8--8--
D|--10-----7--10------------------10--10--------------
A|------9---------------------------------------------
E|----------------------------------------------------
http://www.guitartabcreator.com
Guitar Tab Creator is intended to store guitar tab created through the tool. It currently does not support in-line text editing. Any text you place in here will be lost. If you need to comment on your tab, please use the "Tab Notes" section located below.