C2

(/) Slide Up  (\) Slide Down  (h) Hammer On  (p) Pull Off  (b) Bend (r) Release (v) Vibrato


E|----------------------------------------
B|----------------------------------9-----
G|--9--11--9----------9----------------9--
D|------------10--11-----11--9--11--------
A|----------------------------------------
E|----------------------------------------



E|-----------------------------------------------------------
B|------8------------------------------------------8--9--10--
G|--11-----11--9--11--9----------9------9--10--11------------
D|-----------------------10--11-----11-----------------------
A|-----------------------------------------------------------
E|-----------------------------------------------------------



E|-------------------------------------------------------------
B|------8------------------------------------------------------
G|--11-----11--9--10--9----------9--------------------------6--
D|-----------------------10--11-----11--10--10--9--8--6--8-----
A|-------------------------------------------------------------
E|-------------------------------------------------------------
http://www.guitartabcreator.com
Guitar Tab Creator is intended to store guitar tab created through the tool. It currently does not support in-line text editing. Any text you place in here will be lost. If you need to comment on your tab, please use the "Tab Notes" section located below.