Black

(/) Slide Up  (\) Slide Down  (h) Hammer On  (p) Pull Off  (b) Bend (r) Release (v) Vibrato
E|-----8--7--5--5--4--7--0--0--0--1--0--------
B|-----8--------5--3--6--0--3--0--------------
G|--9--9--------4--4--7--5--2--1--------8--9--
D|-----7--------3--3--6--5--3--0--------------
A|-----------------------0--2--2--------------
E|-----------------------------0--------------



E|--8--7--5--5-----10--------------1--3--
B|--8--------6--8------5--5--5--5--------
G|--9--------5--9------4--3--3--3--------
D|--7--------3--9------5--5--2--5--------
A|--------------8------3--4--4--4--------
E|---------------------------------------



E|--5-----------------------------------------------3-----------------------
B|--6--------0--0--0--0--3--3--3--3--3--3--3--5--6--5--------1--1--1--3--5--
G|--5--7--7--5--5--5--5--4--4--4--4--4--4-----------4--5--5--2--2-----------
D|--7--------3--3--3--3--3--3--3--3--3--3-----------5--------2--2-----------
A|--5-----5--5--5--5--------------------------------3-----3--3--------------
E|--------------------3--3--3--3--3--3--3-----------------------1-----------



E|--1--------------------------0--0--0--0--
B|--3--------0--0--0--0--1--3--1--3--0-----
G|--2--4--4--2--2--1-----------0--2--1-----
D|--0--------0--0--0-----------2--3--0-----
A|--2-----2--2-----------------0--2--2-----
E|--------------0--0-----------------0-----



E|-----7--5--
B|--1--------
G|--0--------
D|--2--------
A|--0--------
E|-----------
http://www.guitartabcreator.com
Guitar Tab Creator is intended to store guitar tab created through the tool. It currently does not support in-line text editing. Any text you place in here will be lost. If you need to comment on your tab, please use the "Tab Notes" section located below.