B

(/) Slide Up  (\) Slide Down  (h) Hammer On  (p) Pull Off  (b) Bend (r) Release (v) Vibrato

E|----------------------------------------
B|--8------7------------------------------
G|-----10-----9--10--9--8--7--6--------7--
D|-------------------------------6--8-----
A|----------------------------------------
E|----------------------------------------



E|--------------------------------------------------------------------------------------------
B|---------8-----------------------------------------8----------------------------------7-----
G|--9--10-----6--9--10--9--10--9--8--7--6--8--9--10-----6--9--10--9--8--7--6--8--9--10-----9--
D|--------------------------------------------------------------------------------------------
A|--------------------------------------------------------------------------------------------
E|--------------------------------------------------------------------------------------------



E|----------------------------------------------
B|----------------------------------------------
G|--10--9--10--10--9--10--9--8--7--6--8--9--10--
D|----------------------------------------------
A|----------------------------------------------
E|----------------------------------------------



E|---------------------------------
B|--8------------------------------
G|-----9--10--9--8--7--6--------7--
D|------------------------6--8-----
A|---------------------------------
E|---------------------------------



E|-------------------------------------------------------
B|--8------7-----------------------------------8--9--10--
G|-----10-----9--10--9--8--7--6--8--9--10--11------------
D|-------------------------------------------------------
A|-------------------------------------------------------
E|-------------------------------------------------------
http://www.guitartabcreator.com
Guitar Tab Creator is intended to store guitar tab created through the tool. It currently does not support in-line text editing. Any text you place in here will be lost. If you need to comment on your tab, please use the "Tab Notes" section located below.