9 September

(/) Slide Up  (\) Slide Down  (h) Hammer On  (p) Pull Off  (b) Bend (r) Release (v) Vibrato


E|----------------------------------------------------------------------------------------------------
B|----------------------------10----------------------------------------------------------------------
G|------12--11--9------9--11------12--11--9----------------------------9--9------9------9-------------
D|--12-------------12------------------------12--10--9------9--10--12--------12-----12-----12--10-----
A|------------------------------------------------------12--------------------------------------------
E|----------------------------------------------------------------------------------------------------



E|---------------------
B|---------------------
G|---------------------
D|--9--10--12------12--
A|-------------10------
E|---------------------



E|-----------------------
B|-----------------------
G|--9--------------------
D|-----12--10--9------9--
A|----------------12-----
E|-----------------------



E|------------------------------------------------------------8-----------------------------
B|---------------------------------10---------------------10-----12--10---------------------
G|-------------9--9------9------9------12--11--9--11--12-----------------12--11--9----------
D|--9--10--12--------12-----12------------------------------------------------------12--10--
A|------------------------------------------------------------------------------------------
E|------------------------------------------------------------------------------------------



E|---------------------------------
B|---------------------------------
G|---------------------------------
D|--12--10------9--10--12------12--
A|----------12-------------10------
E|---------------------------------



E|--------------------
B|--------------------
G|--------------------
D|--12--10------9--9--
A|----------12--------
E|--------------------



E|--
B|--
G|--
D|--
A|--
E|--
http://www.guitartabcreator.com
Guitar Tab Creator is intended to store guitar tab created through the tool. It currently does not support in-line text editing. Any text you place in here will be lost. If you need to comment on your tab, please use the "Tab Notes" section located below.