All the Things - Triad Arps

(/) Slide Up  (\) Slide Down  (h) Hammer On  (p) Pull Off  (b) Bend (r) Release (v) Vibrato
E|-----------------6--8--6--|--9--6--------------------|--------------------------|--
B|--------------8-----------|--------6-----------------|--6-----------------------|--
G|--------5--8--------------|-----------6--5-----5--8--|-----6--------------------|--
D|-----6--------------------|-----------------6--------|--------8--5--------------|--
A|--8-----------------------|--------------------------|--------------6--4-----4--|--
E|--------------------------|--------------------------|--------------------6-----|--



E|--------------------------|-----------------------|--5--8--5--------7--5--7--|--
B|--------------------------|-----------------6--9--|-----------6--8-----------|--
G|-----------------4--------|-----------4--6--------|--------------------------|--
D|--------3--6--5-----3-----|-----3--6--------------|--------------------------|--
A|--3--6-----------------6--|--4--------------------|--------------------------|--
E|--------------------------|-----------------------|--------------------------|--



E|--5-----------------------|-----7--10--8---------------|--------------------6-----|--
B|-----5--8-----------4--5--|--8------------8------------|--------6--8-----8-----8--|--
G|-----------5-----5--------|------------------9---------|-----7--------8-----------|--
D|--------------7-----------|---------------------10--7--|--8-----------------------|--
A|--------------------------|----------------------------|--------------------------|--
E|--------------------------|----------------------------|--------------------------|--



E|--6-----------------------|--------------------------|--6--8--11--10------8--------|--
B|-----8--------------6-----|-----------------------6--|----------------11-----9--8--|--
G|--------8--5-----8-----8--|-----------------5--8-----|-----------------------------|--
D|--------------8-----------|--6-----------6-----------|-----------------------------|--
A|--------------------------|-----8--5--8--------------|-----------------------------|--
E|--------------------------|--------------------------|-----------------------------|--



E|-----8--11--9--8------------|--------8--10--8--5--------|--------------------------|--
B|--9---------------9---------|-----8---------------7--5--|--------------------------|--
G|---------------------8--10--|--9------------------------|--7--4-----------4-----4--|--
D|----------------------------|---------------------------|--------5-----5-----7-----|--
A|----------------------------|---------------------------|-----------7--------------|--
E|----------------------------|---------------------------|--------------------------|--



E|--------------------------|-----------------5--------|-----5--8--5--------------|--
B|-----5--7--5--------------|--------3--5--8-----8--5--|--7-----------5--------5--|--
G|--7--------------4--7--4--|-----4--------------------|-----------------5--7-----|--
D|--------------7-----------|--5-----------------------|--------------------------|--
A|--------------------------|--------------------------|--------------------------|--
E|--------------------------|--------------------------|--------------------------|--



E|-----5--7-----------------|--------------------------|---------8---------------5--|--
B|--7--------8--7--5--------|-----------------5-----8--|--7--10-----10--7--5--7-----|--
G|--------------------7--4--|-----4-----7--------7-----|----------------------------|--
D|--------------------------|--------5-----5-----------|----------------------------|--
A|--------------------------|--7-----------------------|----------------------------|--
E|--------------------------|--------------------------|----------------------------|--



E|--7--8--7------------------|--------------7-----------|--------4-------------------|--
B|-----------10--7--------7--|-----------9--------9-----|-----5-----5----------------|--
G|---------------------8-----|--9--6--9--------9-----6--|--5-------------------------|--
D|------------------9--------|--------------------------|----------------------------|--
A|---------------------------|--------------------------|----------------------------|--
E|---------------------------|--------------------------|----------------------------|--



E|--3-----3-----3--6--------|-----------------3--------|--------------------------|--
B|-----4--------------6--4--|-----------4--5-----5--6--|--------------------8-----|--
G|-----------3--------------|-----5--------------------|--6-----------8--6-----6--|--
D|--------------------------|--6-----6-----------------|-----8--5--8--------------|--
A|--------------------------|--------------------------|--------------------------|--
E|--------------------------|--------------------------|--------------------------|--



E|--------------------------|--8-----------------6--9--|--7-----------------7--9--|--
B|-----------------6--8--9--|-----6--9--------7--------|-----9--------9-----------|--
G|--5-----5--8--7-----------|-----------6--8-----------|--------9--6-----9--------|--
D|-----6--------------------|--------------------------|--------------------------|--
A|--------------------------|--------------------------|--------------------------|--
E|--------------------------|--------------------------|--------------------------|--



E|--11--8--6------------------|--7--8----------------------|-----------------4-----6--|--
B|------------6---------------|--------9--10--7------------|-----------4--6-----6-----|--
G|---------------7---------8--|------------------8--10--7--|--5-----5-----------------|--
D|------------------8--10-----|----------------------------|-----6--------------------|--
A|----------------------------|----------------------------|--------------------------|--
E|----------------------------|----------------------------|--------------------------|--



E|--8-----------------------|--------------------6--8--|--9--6--5---------9--8-----|--
B|-----6--9--------9--6-----|--------------6--9--------|-----------8--11-----------|--
G|-----------6--8--------6--|--5-----5--8--------------|------------------------9--|--
D|--------------------------|-----6--------------------|---------------------------|--
A|--------------------------|--------------------------|---------------------------|--
E|--------------------------|--------------------------|---------------------------|--
http://www.guitartabcreator.com
Guitar Tab Creator is intended to store guitar tab created through the tool. It currently does not support in-line text editing. Any text you place in here will be lost. If you need to comment on your tab, please use the "Tab Notes" section located below.