Johnny B Goode

(/) Slide Up  (\) Slide Down  (h) Hammer On  (p) Pull Off  (b) Bend (r) Release (v) Vibrato


E|-------------5--6--6--6--5--6--6--6--5--6--6--6--------------------------------------------
B|-------6--8--5--6--6--6--5--6--6--6--5--6--6--6--9--8--6-----------7--7--7--7--7--7--7-----
G|--6/7-----------------------------------------------------6--7-----8--8--8--8--8--8--8-----
D|----------------------------------------------------------------8--------------------------
A|-------------------------------------------------------------------------------------------
E|-------------------------------------------------------------------------------------------



E|------------------------------------------------------------------------------------------
B|--6--8--6-------------------------6-------6-------6-------6-------6-------6-------6-------
G|--7--7--7--7--7--5--3--------8b9-----8b9-----8b9-----8b9-----8b9-----8b9-----8b9-----8b---
D|--------------8--------5--3---------------------------------------------------------------
A|------------------------------------------------------------------------------------------
E|------------------------------------------------------------------------------------------



E|---------------------------8--6--------------------------6----------------6-------6-----------
B|-------6-------6--9--8--6--------9--8--6--------------6-----9--8--6---------------------------
G|--8b9-----8b9-----------------------------8--6--7--7-----------------8b9-----8b9-----8--6--7--
D|----------------------------------------------------------------------------------------------
A|----------------------------------------------------------------------------------------------
E|----------------------------------------------------------------------------------------------
http://www.guitartabcreator.com
Guitar Tab Creator is intended to store guitar tab created through the tool. It currently does not support in-line text editing. Any text you place in here will be lost. If you need to comment on your tab, please use the "Tab Notes" section located below.