Hospital Beds Solo

(/) Slide Up  (\) Slide Down  (h) Hammer On  (p) Pull Off  (b) Bend (r) Release (v) Vibrato


E|----------------------------------------------------------4h5--5r4--7--4h5--5r4------------
B|-------5-----5--7--5b5---------5--7--7/9--7--7-----5---------------------------------------
G|--2/4-----4-----------------4-------------------6----------------------------------4/6-----
D|-------------------------------------------------------------------------------------------
A|-------------------------------------------------------------------------------------------
E|-------------------------------------------------------------------------------------------



E|---------------------------------------------------------------------------------------------
B|--5--7--5--7--5-----7----5---5--7--9----9--9--10----10--10--9----------------9--9/h10--9-----
G|-----------------6----6----------------------------------------11-9-9-11---------------------
D|---------------------------------------------------------------------------------------------
A|---------------------------------------------------------------------------------------------
E|---------------------------------------------------------------------------------------------



E|----------------------------------------------------------------------------------------------
B|--10r9-----------------------------------9b10--10r9--12--9b10-9-----------------9\7--7--7\5--5
G|--------11----------9--11--11--9-------------------------------11--9--9h11--------------------
D|-------------9--11----------------11--9-------------------------------------11----------------
A|----------------------------------------------------------------------------------------------
E|----------------------------------------------------------------------------------------------
Guitar Tab Creator is intended to store guitar tab created through the tool. It currently does not support in-line text editing. Any text you place in here will be lost. If you need to comment on your tab, please use the "Tab Notes" section located below.