Star-Spangled Banner

(/) Slide Up  (\) Slide Down  (h) Hammer On  (p) Pull Off  (b) Bend (r) Release (v) Vibrato

E|-----------------0--4--2--0-----------------4--2--0-----------0--0-----------
B|--0-----------0--------------------0--0--0-----------4--2--4--------0--------
G|-----1-----1-----------------1--3--------------------------------------1-----
D|--------2-----------------------------------------------------------------2--
A|-----------------------------------------------------------------------------
E|-----------------------------------------------------------------------------



E|-----------------0--4--2--0-----------------4--2--0-----------0--0-----------
B|--0-----------0--------------------0--0--0-----------4--2--4--------0--------
G|-----1-----1-----------------1--3--------------------------------------1-----
D|--------2-----------------------------------------------------------------2--
A|-----------------------------------------------------------------------------
E|-----------------------------------------------------------------------------



E|-----0--0--0--------------2--5--4--2--0--0-----
B|--0-----------4--2--2--2--------------------4--
G|-----------------------------------------------
D|-----------------------------------------------
A|-----------------------------------------------
E|-----------------------------------------------



E|--------0--2--4--5--7--0--2--4--5--2--0--
B|--0--0-----------------------------------
G|-----------------------------------------
D|-----------------------------------------
A|-----------------------------------------
E|-----------------------------------------
http://www.guitartabcreator.com
Guitar Tab Creator is intended to store guitar tab created through the tool. It currently does not support in-line text editing. Any text you place in here will be lost. If you need to comment on your tab, please use the "Tab Notes" section located below.