Yu Yu Hakusho Dead or Alive

(/) Slide Up  (\) Slide Down  (h) Hammer On  (p) Pull Off  (b) Bend (r) Release (v) Vibrato

E|-------------------------------------------------------------------------------------------
B|--15--14--12--10--15--14--12--10--15--14--12--10--10--12--10----12----12h14--15----15--17--
G|-------------------------------------------------------------------------------------------
D|-------------------------------------------------------------------------------------------
A|-------------------------------------------------------------------------------------------
E|-------------------------------------------------------------------------------------------



E|---------------------------------------------------------------------------------
B|--19--17--17--15--14--12----12--12h14--15----15--17--19--17------17--15--14--12--
G|---------------------------------------------------------------------------------
D|---------------------------------------------------------------------------------
A|---------------------------------------------------------------------------------
E|---------------------------------------------------------------------------------



E|--------------
B|--------------
G|--------------
D|--------------
A|--5--7--9-----
E|--3--5--7-----


verse
E|--
B|--
G|--
D|--
A|--
E|--
http://www.guitartabcreator.com
Guitar Tab Creator is intended to store guitar tab created through the tool. It currently does not support in-line text editing. Any text you place in here will be lost. If you need to comment on your tab, please use the "Tab Notes" section located below.