binblack

(/) Slide Up  (\) Slide Down  (h) Hammer On  (p) Pull Off  (b) Bend (r) Release (v) Vibrato
E|--0-----0-----0-----------------------------
B|-----7-----5-----4--7--------------------7--
G|-----------------------5--7--7b9b7p5--7-----
D|--------------------------------------------
A|--------------------------------------------
E|--------------------------------------------



E|--0-----0-----0------------------------------------
B|-----7-----5-----4---------------------------------
G|---------------------------------------------------
D|--------------------7--7--7--7--7b9--7/9-----9--9--
A|--------------------5--5--5--5--5---------8--------
E|---------------------------------------------------



E|--------------------------------------
B|--------------------------------------
G|--------------------------14--12--14--
D|--12--14h15p14p12h14--12--------------
A|--------------------------------------
E|--------------------------------------



E|---------------------------------------------------
B|---------------------------------------------------
G|------14-------------------------------------------
D|--12------12--14b16------14b16------16r14--12--14--
A|---------------------15---------15-----------------
E|---------------------------------------------------



E|-------------------------------------------------
B|-------------------------------------------------
G|------14--14-------------------------------------
D|--12----------12--12--14--12--14b16------14b16v--
A|--12----------12--12-----------------15----------
E|-------------------------------------------------



E|----------------------------------------------------------------
B|----------------------------------------------------------------
G|----------------------------------------------------------------
D|----------------------------------------------------15--14--12--
A|--12------12--15b17--15b17v------15b17------15--12--------------
E|------12--------------------------------12----------------------



E|-----------------------------------------
B|-----------------------------------------
G|-----------------------------------------
D|--14b16------14b16------16r14p12--14-----
A|---------15------------------------------
E|--------------------15-------------------



E|--------------------------------------------------------
B|--------------------------------------------------------
G|--14------14------14-------------------------------14v--
D|------12------14------12h14--14b16------16r14--12-------
A|------12------14------12------------15------------------
E|--------------------------------------------------------



E|--------------------------------------
B|--------------------------------------
G|---------------------------------14v--
D|---------------------15--14--12-------
A|--15b17------15--12-------------------
E|---------12---------------------------



E|------------------------------------------------------------------
B|------------------------------------------------------------------
G|------------------------------------------------------------------
D|----------------------------------------------------14b15r14--12--
A|--5--5--3--5------3--3--2--3------2--2--0--2--------14------------
E|--0--0--0--0------0--0--0--0------0--0--0--0----------------------
http://www.guitartabcreator.com
Guitar Tab Creator is intended to store guitar tab created through the tool. It currently does not support in-line text editing. Any text you place in here will be lost. If you need to comment on your tab, please use the "Tab Notes" section located below.