western style song

(/) Slide Up  (\) Slide Down  (h) Hammer On  (p) Pull Off  (b) Bend (r) Release (v) Vibrato

E|--2--2--2--2--2--2--2--2----------------------------------
B|--3--3--3--3--------------------------2--2--2--2----2--2--
G|--4--4--4--4--4--4--4--4--4--4--4--4--4--4--4--4----4--4--
D|--4--4--4--4--4--4--4--4--4--4--4--4--4--4--4--4----4--4--
A|----------------------------------------------------------
E|--x--x--x--x--x--x--x--x--x--x--x--x--x--x--x--x----x--x--



E|----------3------------------
B|--3h4--------6--4--3--11--8--
G|-------5---------------------
D|-----------------------------
A|-----------------------------
E|-----------------------------
http://www.guitartabcreator.com
Guitar Tab Creator is intended to store guitar tab created through the tool. It currently does not support in-line text editing. Any text you place in here will be lost. If you need to comment on your tab, please use the "Tab Notes" section located below.