Thug Life (Ballad of Boner Cleavage)

(/) Slide Up  (\) Slide Down  (h) Hammer On  (p) Pull Off  (b) Bend (r) Release (v) Vibrato
E|--------------------------------------------------
B|--------------------------------------------------
G|--------------------------------------------------
D|------------------------------------------5-5-5-7-
A|-0-2-2/3---3/5-5-5-5-0------0-2-2/3---3/5---------
E|--------------------------0-----------------------



E|--0--0--0------------------------------------------------------------------------------
B|--1--1--0------------------------------------------------------------------------------
G|--2--0--0------------------------------------------------------------------------------
D|--2--2--2------2-----2-----2-----2-----2-----2-----2-----2-----2-----2-----2-----2-----
A|--0--3--2---------0-----0-----0-----3-----3-----3-----2-----2-----2-----2-----2-----2--
E|--0--0--0------------------------------------------------------------------------------



E|-------------------------------------------------
B|-------------------------------------------------
G|-------------------------------------------------
D|---------------0---0---0---------------0---0---0-
A|---2---2---2-2---2---2-----2---2---2-2---2---2---
E|-3---3---3---------------3---3---3---------------



E|-0---------0---------0----------------------------x-
B|-1---------1---------0----------------------------x-
G|-2---------0---------0----------------------------0-
D|-2---------2---------2----------------------------0-
A|-0---------3---------2----------------------------2-
E|-0---------0---------0----------------------------3-
http://www.guitartabcreator.com
Guitar Tab Creator is intended to store guitar tab created through the tool. It currently does not support in-line text editing. Any text you place in here will be lost. If you need to comment on your tab, please use the "Tab Notes" section located below.