Teddy Graham Sex

(/) Slide Up  (\) Slide Down  (h) Hammer On  (p) Pull Off  (b) Bend (r) Release (v) Vibrato

E|-----------------------------------------------------------------------------
B|-----------------------------------------------------------------------------
G|-----------------------------------------------------------------------------
D|---------------------5-5-5-5-5-5-5---------------------------7-7-7-7-7-7-7---
A|-5-5-5-5-5-5-5-------3-3-3-3-3-3-3-------7-7-7-7-7-7-7-------5-5-5-5-5-5-5---
E|-3-3-3-3-3-3-3---------------------------5-5-5-5-5-5-5-----------------------



E|---------------------------------
B|---------------------------------
G|---------------------------------
D|---------------------7-7-7-7-7-7-
A|-5-5-5-5-x-x-7-7-7-7-5-5-5-5-5-5-
E|-3-3-3-3-x-x-5-5-5-5-------------



E|---------------0----------------------------------------------------------------------------------------------------------
B|---------------------1--------------------------1---------------------------0---------------------------1-----------------
G|---------------------------0--------------------------0---------------------------0---------------------------2-----------
D|------------------------------------------------------------2---------------------------2---------------------------2-----
A|--------------------------------------------------------------------------------------------------------------------------
E|--------------------------------------------------------------------------------------------------------------------------



E|-
B|-
G|-
D|-
A|-
E|-
http://www.guitartabcreator.com
Guitar Tab Creator is intended to store guitar tab created through the tool. It currently does not support in-line text editing. Any text you place in here will be lost. If you need to comment on your tab, please use the "Tab Notes" section located below.