Happy Song

(/) Slide Up  (\) Slide Down  (h) Hammer On  (p) Pull Off  (b) Bend (r) Release (v) Vibrato

E|-----0----------0----------0----------0----------0----------0----------0-----
B|-----5----------2----------5----------2----------5----------4----------5-----
G|-----6----------3----------6----------3----------6----------5----------6-----
D|-----7----------4----------7----------4----------7----------6----------7-----
A|-----0----------0----------0----------0----------0----------0----------0-----
E|-----x----------x----------x----------x----------x----------x----------x-----



E|-----3-----------3----------3-----------3----------3-----------3----------3------
B|-----8-----------5----------8-----------5----------8-----------7----------8------
G|-----9-----------6----------9-----------6----------9-----------8----------9------
D|-----10----------7----------10----------7----------10----------9----------10-----
A|-----3-----------3----------3-----------3----------3-----------3----------3------
E|-----x-----------x----------x-----------x----------x-----------x----------x------



E|-----8-----5-----3-----5-----
B|-----8-----6-----6-----6-----
G|-----8-----7-----5-----7-----
D|-----------------------------
A|-----------------------------
E|-----------------------------
http://www.guitartabcreator.com
Guitar Tab Creator is intended to store guitar tab created through the tool. It currently does not support in-line text editing. Any text you place in here will be lost. If you need to comment on your tab, please use the "Tab Notes" section located below.