Fine Again by Seether

(/) Slide Up  (\) Slide Down  (h) Hammer On  (p) Pull Off  (b) Bend (r) Release (v) Vibrato

Intro

E|-4-----5---4---4---4---5-----4---5-----5-4-----4-2-
B|---5-5-------5-------5---------5-----5-------5-----
G|-------------------------7-7-----------------------
D|-------------------------7-7-----------------------
A|-------------------------5-5-----------------------
E|---------------------------------------------------


Verse

E|-------------------------------------
B|-------------------------------------
G|---------------------------------7-7-
D|-4-4-x-x-x-x-7-7-x-x-2-2-x-x-x-x-7-7-
A|-4-4-x-x-x-x-7-7-x-x-2-2-x-x-x-x-5-5-
E|-2-2-x-x-x-x-5-5-x-x-0-0-x-x-x-x-----
http://www.guitartabcreator.com
Guitar Tab Creator is intended to store guitar tab created through the tool. It currently does not support in-line text editing. Any text you place in here will be lost. If you need to comment on your tab, please use the "Tab Notes" section located below.