Experimental Riffs

(/) Slide Up  (\) Slide Down  (h) Hammer On  (p) Pull Off  (b) Bend (r) Release (v) Vibrato
E|-----------
B|-----------
G|-----4-----
D|-2-2---5---
A|-----------
E|-----------



E|-------13-
B|----12----
G|-11-------
D|----------
A|----------
E|----------



E|--------------------------------------------------------
B|--------------------------------------------------------
G|--------4-------------4---------------------------------
D|--2--2-----5----2--2-----5----2--2--0--5----2--2--0--5--
A|--------------------------------------------------------
E|--------------------------------------------------------



E|-----------------------------------------------------------------------------------------
B|-----------------------------------------------------------------------------------------
G|-----------------------------------------------------------------------------------------
D|-5--5-5--5-5--5-5--5-5-5-5-5-5--5-5--5-5--5-5--5-5-5-5-5---------------------------------
A|-2--2-2--2-2--2-2--2-2-2-2-2-3--3-3--3-3--3-3--3-3-3-3-3-5--5-5--5-5--5-5--5-5-5-5-5-5---
E|---------------------------------------------------------3--3-3--3-3--3-3--3-3-3-3-3-2---



E|----------------------------
B|----------------------------
G|----------------------------
D|----------------------------
A|-5-5--5-5--5-5--5-5-4-4-4-4-
E|-2-2--2-2--2-2--2-2-2-2-2-2-
http://www.guitartabcreator.com
Guitar Tab Creator is intended to store guitar tab created through the tool. It currently does not support in-line text editing. Any text you place in here will be lost. If you need to comment on your tab, please use the "Tab Notes" section located below.