Dead Island

(/) Slide Up  (\) Slide Down  (h) Hammer On  (p) Pull Off  (b) Bend (r) Release (v) Vibrato


E|---------------------------------------------------
B|---------------------------------------------------
G|-4-4-4-3-3-3-4-4-4-3-3-3-4-4-4-3-3-3-4-4-4-3-3-3-4-
D|-0-0-0-0-0-0-0-0-0-0-0-0-0-0-0-0-0-0-0-0-0-0-0-0-0-
A|-2-2-2-2-2-2-2-2-2-2-2-2-2-2-2-2-2-2-2-2-2-2-2-2-2-
E|---------------------------------------------------



E|---------------------------------------------------
B|---------------------------------------------------
G|-3-4-5--3-4-5--3-4-5--4--------3-------------------
D|-0-0-0--0-0-0--0-0-0--0--------0-------------------
A|-2-2-2--2-2-2--2-2-2--2--------2-------------------
E|---------------------------------------------------
http://www.guitartabcreator.com
Guitar Tab Creator is intended to store guitar tab created through the tool. It currently does not support in-line text editing. Any text you place in here will be lost. If you need to comment on your tab, please use the "Tab Notes" section located below.