Cocks with Good Ample Ejaculations

(/) Slide Up  (\) Slide Down  (h) Hammer On  (p) Pull Off  (b) Bend (r) Release (v) Vibrato
Intro
C G Am
E|-------------------------------------------------------------------------------------------------
B|-1-----1-----1-----1-----1-------3-----3-----3-----3-----3-------1-----1-----1-----1-----1-------
G|---0-----0-----0-----0-----0-------0-----0-----0-----0-----0-------2-----2-----2-----2-----2-----
D|-----2-----2-----2-----2-----2-------0-----0-----0-----0-----0-------2-----2-----2-----2-----2---
A|-------------------------------------------------------------------------------------------------
E|-------------------------------------------------------------------------------------------------
Em C G
E|---------------------------------0-----0-----0-----0-----0-------3-----3-----3-----3-----3-------
B|-0-----0-----0-----0-----0---------1-----1-----1-----1-----1-------3-----3-----3-----3-----3-----
G|---2-----2-----2-----2-----2---------0-----0-----0-----0-----0-------0-----0-----0-----0-----0---
D|-----2-----2-----2-----2-----2-------------------------------------------------------------------
A|-------------------------------------------------------------------------------------------------
E|-------------------------------------------------------------------------------------------------
Am Em
E|-0-----0-----0-----0-----0-------0-----0-----0-----0-----0-------3-----3-----3-----3-----3-------
B|---1-----1-----1-----1-----1-------0-----0-----0-----0-----0-------3-----3-----3-----3-----3-----
G|-----2-----2-----2-----2-----2-------0-----0-----0-----0-----0-------2-----2-----2-----2-----2---
D|-------------------------------------------------------------------------------------------------
A|-------------------------------------------------------------------------------------------------
E|-------------------------------------------------------------------------------------------------

E|-1-----1-----1-----1-----1-----------------------------------------------------------------------
B|---3-----3-----3-----3------3--------------------------------------------------------------------
G|-----2-----2-----2-----2-------2-----------------------------------------------------------------
D|-------------------------------------------------------------------------------------------------
A|-------------------------------------------------------------------------------------------------
E|-------------------------------------------------------------------------------------------------


Verse
C G Am
E|-0----0-0-0-0--0-0-0-0-0---3----3-3-3-3--3-3-3-3-3---0----0-0-0-0--0-0-0-0-0----
B|-1----1-1-1-1--1-1-1-1-1---3----3-3-3-3--3-3-3-3-3---1----1-1-1-1--1-1-1-1-1----
G|-0----0-0-0-0--0-0-0-0-0---0----0-0-0-0--0-0-0-0-0---2----2-2-2-2--2-2-2-2-2----
D|-2----2-2-2-2--2-2-2-2-2---0----0-0-0-0--0-0-0-0-0---2----2-2-2-2--2-2-2-2-2----
A|-3----3-3-3-3--3-3-3-3-3---2----2-2-2-2--2-2-2-2-2---0----0-0-0-0--0-0-0-0-0----
E|---------------------------3----3-3-3-3--3-3-3-3-3---0----0-0-0-0--0-0-0-0-0----
Em
E|-0----0-0-0-0--0-0-0-0-0-----3--3-xx1--1-xx3--3-xx1--1------
B|-0----0-0-0-0--0-0-0-0-0-----3--3-xx3--3-xx3--3-xx3--3------
G|-0----0-0-0-0--0-0-0-0-0-x4--2--2-xx2--2-xx2--2-xx2--2------
D|-2----2-2-2-2--2-2-2-2-2-----0--0-xx0--0-xx0--0-xx0--0------
A|-2----2-2-2-2--2-2-2-2-2------------------------------------
E|-0----0-0-0-0--0-0-0-0-0------------------------------------


Refrain
C Am Em C Am Em
E|--0--0---x-x0--0---x-x0--0---x-x0--0----0--0---x-x0--0---x-x0--0---x-x0--0--
B|--1--1---x-x1--1---x-x0--0---x-x0--0----1--1---x-x1--1---x-x0--0---x-x0--0--
G|--0--0---x-x2--2---x-x0--0---x-x0--0----0--0---x-x2--2---x-x0--0---x-x0--0--
D|--2--2---x-x2--2---x-x2--2---x-x2--2----2--2---x-x2--2---x-x2--2---x-x2--2--
A|--3--3---x-x0--0---x-x2--2---x-x2--2----3--3---x-x0--0---x-x2--2---x-x2--2--
E|---------x-x0--0---x-x0--0---x-x0--0-----------x-x0--0---x-x0--0---x-x0--0--
http://www.guitartabcreator.com
Guitar Tab Creator is intended to store guitar tab created through the tool. It currently does not support in-line text editing. Any text you place in here will be lost. If you need to comment on your tab, please use the "Tab Notes" section located below.