Boner Cleavage

(/) Slide Up  (\) Slide Down  (h) Hammer On  (p) Pull Off  (b) Bend (r) Release (v) Vibrato
E|-------------------------------------------------------------------------------------------------
B|-------------------------------------------------------------------------------------------------
G|-------------------------------------------------------------------------------------------------
D|-3---3---3---3---3---3---3---3---5---5---5---5---5---5---5---5---3---3---3---3---3---3---3---3---
A|---1---1---1---1---1---1---1---1---3---3---3---3---3---3---3---3---1---1---1---1---1---1---1---1-
E|-------------------------------------------------------------------------------------------------



E|-------------------------------------------------------------------------------------------------
B|-------------------------------------------------------------------------------------------------
G|-------------------------------------------------------------------------------------------------
D|-5---5---5---5---5---5---5---5---5-5-3-3-5---5-5-3-3-5---5-5-3-3-5---5-5-3-3-5--------5----------
A|---3---3---3---3---3---3---3---3-3-3-1-1-3---3-3-1-1-3---3-3-1-1-3---3-3-1-1-3--5-5-5-3----------
E|--------------------------------------------------------------------------------3-3-3------------



E|-------------------------------------------------------------------------------------------------
B|-------------------------------------------------------------------------------------------------
G|-------------------------------------------------------------------------------------------------
D|-----------5-------------------------5-------------------------5----5--5--5--5--8--8--8--8--8----
A|--5--5--5--3----------------5--5--5--3----------------5--5--5--3----3--3--3--3--6--6--6--6--6----
E|--3--3--3-------------------3--3--3-------------------3--3--3------------------------------------



E|-------------------------------------------------------------------------------------------------
B|-------------------------------------------------------------------------4-2---------------------
G|--------------------------------------------------------------------1-3-------3-1---------1-3----
D|-6-6-6-6-6-6--7-7-7-7-7-10-10-10--6-6-6-6-6-6--7-7-7-7-7-10-10-10------------------5-------------
A|-4-4-4-4-4-4--5-5-5-5-5-8--8--8---4-4-4-4-4-4--5-5-5-5-5-8--8--8-------------------3-------------
E|-------------------------------------------------------------------------------------------------



E|-------------------------------------------------------------------------
B|-4-2---------------------------------------------------------------------
G|------3-1----------------------------------------------------------------
D|-----------5------5-5-3-3-5---5-5-3-3-5---5-5-3-3-5---5-5-3-3-5--------5-
A|-----------3------3-3-1-1-3---3-3-1-1-3---3-3-1-1-3---3-3-1-1-3--5-5-5-3-
E|-----------------------------------------------------------------3-3-3---



E|---------------------------------------------------------------------------------------------------
B|---6---6---6---6---5---5---5---5---9---9---9---9---8---8---8---8-9-9-9-9-10-10-10-10-11-11-11-11---
G|-5---5---5---5---5---5---5---5---7---7---7---7---7---7---7---7-------------------------------------
D|---------------------------------------------------------------------------------------------------
A|---------------------------------------------------------------------------------------------------
E|---------------------------------------------------------------------------------------------------



E|------------------------------
B|-12-12-12-12-12---------------
G|------------------------------
D|--------------------5-5-3-3-5-
A|--------------------3-3-1-1-3-
E|------------------------------
http://www.guitartabcreator.com
Guitar Tab Creator is intended to store guitar tab created through the tool. It currently does not support in-line text editing. Any text you place in here will be lost. If you need to comment on your tab, please use the "Tab Notes" section located below.