Amin_Penta_Run_1

(/) Slide Up  (\) Slide Down  (h) Hammer On  (p) Pull Off  (b) Bend (r) Release (v) Vibrato

E|---------------------------------------8--10--10--8---------------------------------------
B|--------------------------------8--10----------------10--8--------------------------------
G|-----------------------5--7--9------------------------------9--7--5-----------------------
D|-----------------5--7------------------------------------------------7--5-----------------
A|--------3--5--7------------------------------------------------------------7--5--3--------
E|--3--5------------------------------------------------------------------------------5--3--



E|--10--8----------------------------------------------------------------------------8--10--
B|---------10--8--------------------------------------------------------------8--10---------
G|----------------9--7--5--------------------------------------------5--7--9----------------
D|-------------------------7--5--------------------------------5--7-------------------------
A|-------------------------------7--5--3--------------3--5--7-------------------------------
E|----------------------------------------5--3--3--5----------------------------------------
http://www.guitartabcreator.com
Guitar Tab Creator is intended to store guitar tab created through the tool. It currently does not support in-line text editing. Any text you place in here will be lost. If you need to comment on your tab, please use the "Tab Notes" section located below.