Halo: Reach "Ashes" Cello Tab (Guitar Dub)

(/) Slide Up  (\) Slide Down  (h) Hammer On  (p) Pull Off  (b) Bend (r) Release (v) Vibrato


E|--------------------------------------------------------------------------------------------------
B|--------------------------------------------------------------------------------------------------
G|--------------------------------------------------------------------------------------------------
D|--------------------------------------3-----4-----------------------------------------3-----4-----
A|-----3--4--3-----3--4--3-----4--6--4-----4-----4-----3--4--3-----3--4--3-----4--6--4-----4-----4--
E|--1-----------1-----------2-----------------------1-----------1-----------2-----------------------



E|-----------------------------------------------------------
B|--------------------------------------------2--4--6--4--2--
G|-----------------------------------------------------------
D|--------3-----------3-----------------0--2-----------------
A|-----4-----4--6--4-----4--2-----2--4-----------------------
E|--2--------------------------2-----------------------------
http://www.guitartabcreator.com
Guitar Tab Creator is intended to store guitar tab created through the tool. It currently does not support in-line text editing. Any text you place in here will be lost. If you need to comment on your tab, please use the "Tab Notes" section located below.