Bluesy

(/) Slide Up  (\) Slide Down  (h) Hammer On  (p) Pull Off  (b) Bend (r) Release (v) Vibrato

E|-------------3----------------------------
B|--3/5v--3h5-----5p3p0-------0-------------
G|-----------------------2h3----------0--3--
D|-------------------------------0h2-----2--
A|---------------------------------------3--
E|------------------------------------------



E|-------------0----------------------------------------
B|--------0h3----------0----------------3---------------
G|--3--3----------0h2-----2--2--2--2h4-----4p2p0--0--0--
D|--2--2------------------1--1--------------------2--2--
A|--3--3------------------2--2--------------------2--2--
E|------------------------------------------------0--0--



E|---------------------------3/5--3------------------
B|-----------------------------------5p3p0-----------
G|--0----------0----------------------------3--3--3--
D|--2--0--0h2----------3--3--------------------2--2--
A|--2-------------0h2--2--2--------------------3--3--
E|--0------------------3--3--------------------------
http://www.guitartabcreator.com
Guitar Tab Creator is intended to store guitar tab created through the tool. It currently does not support in-line text editing. Any text you place in here will be lost. If you need to comment on your tab, please use the "Tab Notes" section located below.