Tis the Season

(/) Slide Up  (\) Slide Down  (h) Hammer On  (p) Pull Off  (b) Bend (r) Release (v) Vibrato


E|--------------------------------------------------------------------------------------------------
B|--------------------------------------------------------------------------------------------------
G|--------------------------------------------------------------------------------------------------
D|--7--7--7--7--7--7--9--7--6--6--6--6--6--9--6--6--4--4--4--6--6--4--4--6--------------------------
A|--------------------------------------------------------------------------4--4--4--4--7--7--7--7--
E|--------------------------------------------------------------------------------------------------



E|----------------------------------------------------------------------------------------
B|----------------------------------------------------------------------------------------
G|----------------------------------------------------------------------------------------
D|--7--7h9--7--6-------------------------------7--7h9--7--6-------------------------------
A|----------------7--9/10--10h12--10--9--9--7----------------7--9/10--10h12--10--9--9--7--
E|----------------------------------------------------------------------------------------



E|---------------------------------------------------------------------------------------------------
B|---------------------------------------------------------------------------------------------------
G|---------------------------------------------------------------------------------------------------
D|--7-----9--10------------------------7-----9--10---------------------------------------------------
A|-----9---------10--9--7--5--4--5--7-----9---------10--9--7--5--4--5--7--9--9--9--9--9--9--9--9-----
E|---------------------------------------------------------------------------------------------------



E|----------------------------------------------------------------------------------------------------
B|----------------------------------------------------------------------------------------------------
G|----------------------------------------------------------------------------------------------------
D|--9--9--9--9--9--9--11--9--8--8--8--8--8--11--8--8--6--6--6--8--8--6--6--8--------------------------
A|----------------------------------------------------------------------------6--6--6--6--9--9--9--9--
E|----------------------------------------------------------------------------------------------------
http://www.guitartabcreator.com
Guitar Tab Creator is intended to store guitar tab created through the tool. It currently does not support in-line text editing. Any text you place in here will be lost. If you need to comment on your tab, please use the "Tab Notes" section located below.