They call it life bass

(/) Slide Up  (\) Slide Down  (h) Hammer On  (p) Pull Off  (b) Bend (r) Release (v) Vibrato
E|---------------------------------------------------------------------------------------------
B|---------------------------------------------------------------------------------------------
G|-----------------------------------------------------7---------------------------------------
D|-----------5h7-----------5h7--5--5--5--5h7--5--5--5-----7--5-----------5h7-----------5h7-----
A|--5--5--5-------5--5--5---------------------------------------5--5--5-------5--5--5----------
E|---------------------------------------------------------------------------------------------



E|-----------------------------------------------------------------------------------
B|-----------------------------------------------------------------------------------
G|-------------------------7---------------------------------------------------------
D|--5--5--5--5h7--5--5--5-----7--5-----------5h7-----------7--5--3--5--3--3/5--7--5--
A|----------------------------------5--5--5-------5--5--5----------------------------
E|-----------------------------------------------------------------------------------



E|----------------------------
B|----------------------------
G|----------------------------
D|-----------5h7--------7-----
A|--5--5--5-------5--5-----5--
E|----------------------------



E|--------------------------------------------------------------------------------------
B|--------------------------------------------------------------------------------------
G|-----------------7--------------------7--------------------7--------------7-----------
D|-----------7--------7-----------7--------7--5--5--5--7--5-----7--5--5--5-----5--7--5--
A|--5--5--5-----5--------5--5--5-----5--------------------------------------------------
E|--------------------------------------------------------------------------------------



E|--------------------------------------------------------------------------------------
B|--------------------------------------------------------------------------------------
G|-----------------7--------------------7--------------------7--------------7-----------
D|-----------7--------7-----------7--------7--5--5--5--7--5-----7--5--5--5-----5--7--5--
A|--5--5--5-----5--------5--5--5-----5--------------------------------------------------
E|--------------------------------------------------------------------------------------



E|-------------------------------------------------------------------------------------
B|-------------------------------------------------------------------------------------
G|-----------------7-------------------------------------------------------------7-----
D|-----------7--------7-----------7-----7--5--3--5--3--3/5--7--5-----------7--------7--
A|--5--5--5-----5--------5--5--5-----5----------------------------5--5--5-----5--------
E|-------------------------------------------------------------------------------------



E|-----------------------
B|-----------------------
G|-----------------------
D|-----------7-----7--8--
A|--5--5--5-----5--------
E|-----------------------



E|-----------------------------------------------------------------------------------------
B|-----------------------------------------------------------------------------------------
G|-----------11--9--7--9-----------11--9--7--9---------------------------------------------
D|--9--9--9---------------9--9--9---------------------------10--12--10--12-----------------
A|----------------------------------------------10--10--10------------------10--10--10-----
E|-----------------------------------------------------------------------------------------



E|---------------------------------------------------------------------------------------------
B|---------------------------------------------------------------------------------------------
G|---------------------------11--9--7--9-----------11--9--7--9---------------------------------
D|--10--12--10--12--9--9--9---------------9--9--9---------------------------10--12--10--12-----
A|--------------------------------------------------------------10--10--10---------------------
E|---------------------------------------------------------------------------------------------



E|---------------------------------------------------------------------------
B|---------------------------------------------------------------------------
G|---------------------------------------------------------------------------
D|----------------------12--12--12--12--12--9--9--9--9--7--5--5--5--7--7--7--
A|--10--10--10--10--12-------------------------------------------------------
E|---------------------------------------------------------------------------



E|--------------------------------------------------------------------------------------
B|--------------------------------------------------------------------------------------
G|--------------------------------------------------------------------------------------
D|--------------------------------------------------------------------------------------
A|--5-----5--5h7--5-----5-------7--7h9--7-----7--------10--10h12--10------10------------
E|-----5-------------5-----5/7-------------7-----7/10-----------------10------10/12-----



E|----------------------------------------------------------------------------------
B|----------------------------------------------------------------------------------
G|------------------------7--7--7--7h9--7-----7-------9--9--9--9h11--9-----9--------
D|---------------------7-------------------7-----7/9--------------------9-----9/12--
A|--12--12h14--12-------------------------------------------------------------------
E|-----------------12---------------------------------------------------------------



E|-------------------------------------------------------------------
B|-------------------------------------------------------------------
G|--12--12--12--12h14--12------12---------14--14--14--14h16--14------
D|-------------------------12------12/14-------------------------14--
A|-------------------------------------------------------------------
E|-------------------------------------------------------------------



E|------------------------------------------------------------------------------------
B|------------------------------------------------------------------------------------
G|-----------------7--------------------7---------------------------------------------
D|-----------7--------7-----------7--------7--7/12--12--12--12--12--9--9--9--9--7-----
A|--5--5--5-----5--------5--5--5-----5------------------------------------------------
E|------------------------------------------------------------------------------------



E|--------------------------------------------------------------------------------------
B|--------------------------------------------------------------------------------------
G|--------------------------------------------4--4--4--4--5--5--5--5--7--7--7--9--9--9--
D|--5--5--5--7--7--7--------------4--4--4--4--------------------------------------------
A|--------------------5--5--5--5--------------------------------------------------------
E|--------------------------------------------------------------------------------------



E|-----------------------------------------------------------------------------------------------
B|-----------------------------------------------------------------------------------------------
G|--------------------7-----------------------7-----------------------7--------------------------
D|--------------7--------7--------------7--------7--------------7--------7--------------7--------
A|--5--5--5--5-----5--------5--5--5--5-----5--------5--5--5--5-----5--------5--5--5--5-----5-----
E|-----------------------------------------------------------------------------------------------



E|-------------------------------
B|-------------------------------
G|-------------------------------
D|--7--5--3--5--3--3/5--7--5-----
A|----------------------------5--
E|-------------------------------
http://www.guitartabcreator.com
Guitar Tab Creator is intended to store guitar tab created through the tool. It currently does not support in-line text editing. Any text you place in here will be lost. If you need to comment on your tab, please use the "Tab Notes" section located below.