I'm here for you bass

(/) Slide Up  (\) Slide Down  (h) Hammer On  (p) Pull Off  (b) Bend (r) Release (v) Vibrato


E|--------------------------------------------------------------------------------------------------
B|--------------------------------------------------------------------------------------------------
G|--------------------------------------------------------------------------------------------------
D|--------------------------------------------------------------------------------------------------
A|-----------------------------------7--7--6--5--5--3-----------------7--7--6--5--5--3--------------
E|--5--0--3--5--0--3--5--0--3--5--5--------------------5--0--3--5--5--------------------5--0--3--5--



E|----------------------------------------------------------------------------------------------------------------------------------------
B|----------------------------------------------------------------------------------------------------------------------------------------
G|----------------------------------------------------------------------------------------------------------------------------------------
D|----------------------------------------------------------------------------------------------------------------------------------------
A|--------------------------------------------------------------2-----2--4--5--5--5/9--7--7-----------------7--7--6--5--5--3--------------
E|--5--0--3--5--0--3--5--0--3--5--5--3--0--5--3--0--5--4--3--3-----3-------------------------5--0--3--5--5--------------------5--0--3--5--



E|-----------------------------------------------------------------------------------------------------------------------------------------------
B|-----------------------------------------------------------------------------------------------------------------------------------------------
G|-----------------------------------------------------------------------------------------------------------------------------------------------
D|-----------------------------------------------------------------------------------------------------------------------------------------------
A|--------------------------------------------------------------------------------------2--3--3--3/7--5--5--3--3--3/7--5--5--3--3--3/7--5--5--3--
E|--5--5--3--2--0--3--5--0--3--4--5--0--3--5--5--3--2--0--3--5--0--3--4--5--0--3--5--5-----------------------------------------------------------
http://www.guitartabcreator.com
Guitar Tab Creator is intended to store guitar tab created through the tool. It currently does not support in-line text editing. Any text you place in here will be lost. If you need to comment on your tab, please use the "Tab Notes" section located below.