Bulls in the Bronx (Solo)

(/) Slide Up  (\) Slide Down  (h) Hammer On  (p) Pull Off  (b) Bend (r) Release (v) Vibrato
E|---5-----5-----7-----7---4-----4-----5-----5-----
B|-----7-----7-----9-----9---6-----6-----7-----7---
G|-6-----6-----6-----6---------6-----6-----6-----6-
D|-------------------------------------------------
A|-------------------------------------------------
E|-------------------------------------------------



E|-9-------9----------7------7---4-----4-----5-----5-----
B|---10------10---------9------9---6-----6-----7-----7---
G|------11------11-10-----10---------6-----6-----6-----6-
D|-------------------------------------------------------
A|-------------------------------------------------------
E|-------------------------------------------------------



E|-9----------9-8-7------7------10------10------9------------8-9----------9-12-11-10---
B|---10----10-------9------9-------9-------9------10----9-10-----10----10------------9-
G|------11------------10-----10------10------10------11-------------11-----------------
D|-------------------------------------------------------------------------------------
A|-------------------------------------------------------------------------------------
E|-------------------------------------------------------------------------------------



E|---------10-----7----------------7-------------14--
B|------9------9-----9------9--10-----7--10--14------
G|--10------------------10---------------------------
D|---------------------------------------------------
A|---------------------------------------------------
E|---------------------------------------------------
http://www.guitartabcreator.com
Guitar Tab Creator is intended to store guitar tab created through the tool. It currently does not support in-line text editing. Any text you place in here will be lost. If you need to comment on your tab, please use the "Tab Notes" section located below.