SONG 1

(/) Slide Up  (\) Slide Down  (h) Hammer On  (p) Pull Off  (b) Bend (r) Release (v) Vibrato


E|--0---0---0---0--|--
B|--0---0---0---0--|--
G|--12--10--10--8--|--
D|--0---0---0---0--|--
A|-----------------|--
E|--12----------9--|--



E|--0--0--0---0--|-----
B|--0--0--0---0--|-----
G|--8--7--10--8--|-----
D|--0--0--0---0--|-----
A|---------------|-----
E|--9--7------9--|-----



E|--0--0--0--0--|--0--0--0--0--|--0--0--0--0--|--0--0--0--|--
B|--0--0--0--0--|--0--0--0--0--|--0--0--0--0--|--0--0--0--|--
G|--5--3--3--3--|--5--3--3--3--|--3--5--3--5--|--3--5--7--|--
D|--0--2--2--0--|--0--2--2--0--|--0--0--0--0--|--0--0--0--|--
A|-----0--0--2--|-----0--0--2--|--------------|-----------|--
E|--5-----------|--5-----------|--4--5--4--5--|--4--5--7--|--



E|--0--0--0--0--|--
B|--0--0--0--0--|--
G|--8--7--3--5--|--
D|--0--0--0--0--|--
A|--------------|--
E|--9--7--4--5--|--
http://www.guitartabcreator.com
Guitar Tab Creator is intended to store guitar tab created through the tool. It currently does not support in-line text editing. Any text you place in here will be lost. If you need to comment on your tab, please use the "Tab Notes" section located below.