Vermont Hills

(/) Slide Up  (\) Slide Down  (h) Hammer On  (p) Pull Off  (b) Bend (r) Release (v) Vibrato


E|----------------------------------------------------------------------------------------------------------------
B|-----8h10-----10------------------------------------------------8h10-----10-------------------------------------
G|---------------------9h11-----11-----11-----12-----11-----9---------------------9h11-----11-----11-----9-----7--
D|--0--------0------0--------0------0------0------0------0-----0--------0------0--------0------0------0-----0-----
A|----------------------------------------------------------------------------------------------------------------
E|----------------------------------------------------------------------------------------------------------------



E|------------------------------------------------------
B|------------------------------------------------------
G|-----7h9-----9-----9-----7-----7h9-----9-----9-----7--
D|--0-------0-----9-----7-----0-------0-----9-----7-----
A|------------------------------------------------------
E|------------------------------------------------------



E|----------------------------------------------
B|----------------------------------------------
G|-----9p7---------9p7-----7-----9p7---------7--
D|--0-------9p7h9-------9-----0-------9p7h9-----
A|----------------------------------------------
E|----------------------------------------------
http://www.guitartabcreator.com
Guitar Tab Creator is intended to store guitar tab created through the tool. It currently does not support in-line text editing. Any text you place in here will be lost. If you need to comment on your tab, please use the "Tab Notes" section located below.