2 string funk

(/) Slide Up  (\) Slide Down  (h) Hammer On  (p) Pull Off  (b) Bend (r) Release (v) Vibrato


E|------------------------------------
B|------------------------------------
G|------------------------------------
D|--11--11--10--10/5--5--5--4--10-----
A|--12--12--12--------7--7--5---------
E|------------------------------------



E|------------------------------------------------------
B|------------------------------------------------------
G|------------------------------------------------------
D|--11------------10--0---10--5---------5h7p5--------4--
A|--12--12p10h12--12--12--12--7--7p5h7---------7--5--5--
E|------------------------------------------------------
http://www.guitartabcreator.com
Guitar Tab Creator is intended to store guitar tab created through the tool. It currently does not support in-line text editing. Any text you place in here will be lost. If you need to comment on your tab, please use the "Tab Notes" section located below.