What a feeling - Irene Cara bass tab

Intro


G|---------------------------------------------------------------1-------------
D|----0-1-3---------1-3-5--------0-1-3----1-3-5----------------1---1------3----
A|-1--------3----3--------5----1--------3--------3---6--6-1-------------3---3--
E|------------1-------------3----------------------3---------4-------1---------


G|------------------------------------------------------------------------
D|----0-1-3--3-----1-3-5--------------------------------------------------
A|-1------------3---------3----6--6-1--1----------------------------------
E|--------------------------3------------4-4-4-4-4-4-4-4--1-1-1-1-1-1-1-1-

Verse

G|-----------------------------------------------------------------------------
D|-----------------------------------------------------------------------------
A|-1--1-1--------------1-3--3-3---3---------6--6-6--6-1--1-1--1----------------
E|---------3-4-1--1-1---------------3--3-3----------------------4--4--4-4--4-1-1-1-1--

Chorus (x2)

G|-------------8---------------------8--------------------------------------------------
D|---5----3---------3-------5---3---------3-----------------0--1-1--1h3----3----3---3---
A|-----------6---------------------6------------1-1--1-3-3------------------------------
E|-3----1---------1---3---3---1---------1---3----------------------------1----1---1---1-

(Repeat Verse)(x2)
(Repeat Chorus)(x2)

Bridge (x2)

G|----------------------------------------------------------
D|------6-------6-------6-------------3-3---3-------3-3---3-
A|----------------------------------------------------------
E|-4-4-----4-4-----4-4----4-4--4--1-1-----1----1-1------1---


G|------------------------------------------------------------------------------
D|--------------------------------------------------------------0-0--0-1-1--1h3-
A|-------------6-6-6--1-1-----------6-6-6--1-1---1-1--1-3-3--3------------------
E|-3-3-3--3-3-------------3-3-3--3----------------------------------------------

(Chorus till the end)
http://www.guitartabcreator.com
Guitar Tab Creator is intended to store guitar tab created through the tool. It currently does not support in-line text editing. Any text you place in here will be lost. If you need to comment on your tab, please use the "Tab Notes" section located below.