Layla Unplugged - Eric Clapton

(/) Slide Up  (\) Slide Down  (h) Hammer On  (p) Pull Off  (b) Bend (r) Release (v) Vibrato
E|--------------------------------------
B|-------3--3------------------------3--
G|-------2--2-----3--3--3----5--5----2--
D|-------0--0-----3--3--3----5--5----0--
A|--0--3--------3--1--1--1----3--3------
E|--------------------------------------



E|-----------------------------------------------------------------------------------10--12-----
B|--------5--6----5h6p5-----5--6--5--------6/8--6--8--8/10--8--10--10/13v----10--13-------------
G|-----7-----------------7-----------7v---------------------------------------------------------
D|--7-------------------------------------------------------------------------------------------
A|----------------------------------------------------------------------------------------------
E|----------------------------------------------------------------------------------------------



E|--10h12p10------10----------------------------------------------------------------------------
B|------------13------13--10------10------------------------------------------5--6--5-----------
G|----------------------------12------12----10h12p10\9----10--9\7v---------7-----------7--5--7--
D|----------------------------------------------------------------------7-----------------------
A|----------------------------------------------------------------------------------------------
E|----------------------------------------------------------------------------------------------



E|------------------------------------
B|------------------------------------
G|------------------------------------
D|--7p5--3-----3h5--3-----------------
A|----------5----------5--3--5-----3--
E|------------------------------5-----
http://www.guitartabcreator.com
Guitar Tab Creator is intended to store guitar tab created through the tool. It currently does not support in-line text editing. Any text you place in here will be lost. If you need to comment on your tab, please use the "Tab Notes" section located below.