Logan's Lessons 01

(/) Slide Up  (\) Slide Down  (h) Hammer On  (p) Pull Off  (b) Bend (r) Release (v) Vibrato
E|------------------------------------------|------------------------------------------------------
B|---------------3p2-----3p2-----3--3p2-----|------------------------------------------------------
G|---------2--4-------4-------2----------4--|------------------------------------------------------
D|--2/4-------------------------------------|----------------------5-------------5--------8-----7--
A|------------------------------------------|-----5--6--7-----5/7-----7-----5/7-----7--------------
E|------------------------------------------|--0-----------0-------------0-------------6-----5-----



E|--------------------------------------------------------------|--------------------------------
B|--------------------------------------------------------------|--------------------------------
G|-----------0-----------0-----------0--------------------------|--------------------------------
D|--------4-----------5-----------7-----------0--------0--------|--------3--2--------7--6--5-----
A|-----2-----------3-----------5-----------4--------2--------4--|--5--5--------3--5-----------3--
E|--0-----------0-----------0-----------5--------3--------5-----|--------------------------------



E|--------------------------------------------------|--------------------------------------
B|--------------------------------------------------|--------------------------------------
G|--------------------------------------------------|--1-----2-----2-----1-----2-----2-----
D|--------------------------------------------------|--2-----2-----2-----2-----2-----2-----
A|--------4-----5-----4-----2-----------2-----------|--2-----0-----0-----2-----0-----0-----
E|--2--2-----2-----2-----2-----5--4--5-----5--4--0--|--0--3-----3-----3--0--3-----3-----3--



E|------------------------------------------------------------------------------------------------
B|-----------------5--6--6--6--8--5--5---------------------------5--6--6--6--8--5--5--------------
G|-----5--7--7--7-----------------------7p5--5h7-----5--7--7--7-----------------------7--5--7-----
D|--7---------------------------------------------7-----------------------------------------------
A|------------------------------------------------------------------------------------------------
E|------------------------------------------------------------------------------------------------



E|-----------------------------5--6--6--5-----5--------------------5--------------------------
B|-----------------6--8--8--8--------------8-----------5--6--6--8-----------6--5--5--6--------
G|-----5--7--7--7--------------------------------7--7-----------------7--7--------------7-----
D|--7-----------------------------------------------------------------------------------------
A|--------------------------------------------------------------------------------------------
E|--------------------------------------------------------------------------------------------



E|-----------
B|--5--------
G|-----7--5--
D|-----------
A|-----------
E|-----------
http://www.guitartabcreator.com
Guitar Tab Creator is intended to store guitar tab created through the tool. It currently does not support in-line text editing. Any text you place in here will be lost. If you need to comment on your tab, please use the "Tab Notes" section located below.