Nagi no Asukara BGM

(/) Slide Up  (\) Slide Down  (h) Hammer On  (p) Pull Off  (b) Bend (r) Release (v) Vibrato

Stave 1:

E|-----12--------------12-------------12-------------
B|---------12--------------12-------------12---------
G|-------------12--------------12-------------12-----
D|---------------------------------------------------
A|---------------------------------7--------------7--
E|--8--------------10--------------------------------

Stave 2:

E|---------------------------------------------------------------
B|-------------------------------0--1--3--0----------------------
G|--0--2--4\5/4--0--0h2p0--0--2--------------0--2--0--0h2--------
D|---------------------------------------------------------0--0--
A|---------------------------------------------------------------
E|---------------------------------------------------------0-----

Stave 3:

E|----------------------------------------------------------
B|--0h1--3--3--3--3--3--1--0--------------------------------
G|----------------------------0--0h2--4--4--4h5p4--0--2-----
D|-------------------------------------------------------0--
A|----------------------------------------------------------
E|-------------------------------------------------------0--

http://www.guitartabcreator.com
Guitar Tab Creator is intended to store guitar tab created through the tool. It currently does not support in-line text editing. Any text you place in here will be lost. If you need to comment on your tab, please use the "Tab Notes" section located below.