C Major Playing Around

(/) Slide Up  (\) Slide Down  (h) Hammer On  (p) Pull Off  (b) Bend (r) Release (v) Vibrato


E|--------------|---------------------|--------------|------------------|-
B|--------------|---------------------|--------------|------------------|-
G|--------------|---------------------|--------------|------------------|-
D|--------9p7---|-7-7---9-9-----------|--------9p7---|-7-7---9-9--------|-
A|-8-7--------8-|-------------10p8--8-|-8-7--------8-|-------------10p8-|-
E|-----8--------|---------------------|-----8--------|------------------|-



E|---------|-----------------|---------|-----------------|---------|-
B|---------|-----------------|---------|-----------------|---------|-
G|---------|-----------------|---------|-----------------|---------|-
D|---------|-3/2-------------|---------|-3/2-------------|---------|-
A|---------|------3-0---0--0-|---------|------3-0---0--0-|---------|-
E|---------|-----------------|---------|-----------------|---------|-



E|----------|----------|----------|----------|---------------|-
B|----------|----------|----------|----------|---------------|-
G|----------|----------|----------|----------|---------------|-
D|----------|-2--2-2-2-|-5--5-5-5-|-7--7-7-7-|-7--5--2-------|-
A|-3--3-3-3-|----------|----------|----------|---------3-2-0-|-
E|----------|----------|----------|----------|---------------|-



E|---------------------------------|---------------|--------------|-
B|---------------------------------|---------------|--------------|-
G|---------------------------------|---------------|--------------|-
D|---------------------------------|---------------|--------------|-
A|-0-0-0-0-0-0-0-0-0-0-0-0-0-0-0-0-|-0-0-0-0-------|-0-0-0-0------|-
E|---------------------------------|---------8-----|---------8----|-



E|-----------------|---------|-----------------|--------------|---
B|-----------------|---------|-----------------|--------------|---
G|-----------------|---------|-----------------|--------------|---
D|-----------------|---------|-----------------|--------------|---
A|-0-0-----0-0-----|---------|-0-0-----0-0-----|-------7-7--5-|---
E|-----8-8-----8-8-|---------|-----8-8-----8-8-|-10-10--------|---
http://www.guitartabcreator.com
Guitar Tab Creator is intended to store guitar tab created through the tool. It currently does not support in-line text editing. Any text you place in here will be lost. If you need to comment on your tab, please use the "Tab Notes" section located below.