More Solo Simply Red

(/) Slide Up  (\) Slide Down  (h) Hammer On  (p) Pull Off  (b) Bend (r) Release (v) Vibrato


E|-------------------------
B|---------10b12b10--8b10--
G|--9--12------------------
D|-------------------------
A|-------------------------
E|-------------------------



E|---------------------
B|--------10b12b10-----
G|--7--9------------9--
D|---------------------
A|---------------------
E|---------------------



E|----------------------
B|---------12b14b12b14--
G|------9---------------
D|--12------------------
A|----------------------
E|----------------------



E|----------15b17b15-----
B|------12------------10\
G|--14-------------------
D|-----------------------
A|-----------------------
E|-----------------------



E|--------------------------------------------------------------10--------------------------
B|------------10b12b10b12------------10b12------------11b10--8------11b10--8-----7--8--7--5\
G|-----9--12------------------9--12------------9--12--------------------------9-------------
D|--9----------------------9----------------9-----------------------------------------------
A|------------------------------------------------------------------------------------------
E|------------------------------------------------------------------------------------------



E|----------------------------------------
B|----------------------------------------
G|---------9--------------------9---------
D|-----11-----11------------11-----11-----
A|--9-------------12--9--9-------------9--
E|----------------------------------------



E|------9--12p9------8--11p8-----7--10p7-------
B|---------------10-----------9-----------8--5\
G|--11-----------------------------------------
D|---------------------------------------------
A|---------------------------------------------
E|---------------------------------------------



E|------12--17b19--17--15--14-----------------------------
B|--12-------------------------17--15---------------------
G|-------------------------------------16--14--12---------
D|-------------------------------------------------14--9--
A|--------------------------------------------------------
E|--------------------------------------------------------
http://www.guitartabcreator.com
Guitar Tab Creator is intended to store guitar tab created through the tool. It currently does not support in-line text editing. Any text you place in here will be lost. If you need to comment on your tab, please use the "Tab Notes" section located below.