Fade solo

(/) Slide Up  (\) Slide Down  (h) Hammer On  (p) Pull Off  (b) Bend (r) Release (v) Vibrato

Stave 1:

E|----------------------------------------------------------------------
B|------------------------------------9--9--12--7--7--9--5--5--7--5--2--
G|--9--9--12--7--7--9--5--5--7--5--2------------------------------------
D|----------------------------------------------------------------------
A|----------------------------------------------------------------------
E|----------------------------------------------------------------------

Stave 2:

E|---------------------------------------------------------------------------
B|---------------------------------------------------------------------------
G|--------------------------------------5--5/9--12--7--7--9--5--7b7r5--------
D|--5--5/9/12--7--7--9--5--7b7r5---------------------------------------5--7--
A|--------------------------------5--7---------------------------------------
E|---------------------------------------------------------------------------

Stave 3:

E|-----------------------------------------
B|--3--5--3--2-----------------------------
G|--------------0--3--5--------------------
D|-----------------------------3--5--------
A|-----------------------3--5--------3--5--
E|-----------------------------------------

http://www.guitartabcreator.com
Guitar Tab Creator is intended to store guitar tab created through the tool. It currently does not support in-line text editing. Any text you place in here will be lost. If you need to comment on your tab, please use the "Tab Notes" section located below.