That Pseudo Song Init

(/) Slide Up  (\) Slide Down  (h) Hammer On  (p) Pull Off  (b) Bend (r) Release (v) Vibrato
E|-----------------12--------
B|--5--------------12--------
G|--5--------9---------------
D|-----------8---------------
A|-----------7---------------
E|-----0--0-----0------0--0--



E|------------------------------------------------|-------------------------------------------
B|------------------------------------------------|-------------------------------------------
G|----------------1-------------------------------|-----------1-------------------------------
D|--2-------------1--2--3----3--3--3--3--3--3--3--|--2--2--2--1--2--3----3--3--3--3--3--3--3--
A|--2----------------2--1----1--1--1--1--1--1--2--|--2--2--2-----2--1----1--1--1--1--1--1--1--
E|--0----0--0--0-----0----------------------------|--0--0--0-----0----------------------------



E|-------------------------|------------------------
B|-------------------------|------------------------
G|-------------------------|---------------8-----8--
D|----------------1-----1--|--5----7--5/7-----7-----
A|-------0-----0-----0-----|------------------------
E|--3-------3--------------|------------------------



E|--0---------------------0--------|--0----------0----------0----------|--
B|--0----------1----------2--------|--0----------0----------0----------|--
G|--0----------0----------2--------|--9----------5----------6----------|--
D|--2----------2----------2--------|--9----------5---------------------|--
A|--2----------3----------0--------|--7----------3----------4----------|--
E|--0------------------------------|--0--------------------------------|--



E|--0----------0----------0----------|--0--------0--------0------0------|--
B|--0----------2----------0----------|--0--------2--------0------0------|--
G|--5----------2----------0----------|--5--------2--------7------8------|--
D|--5----------2----------2----------|--5--------2--------7------9------|--
A|--3----------0----------2----------|--3--------0--------5------6------|--
E|------------------------0----------|----------------------------------|--
http://www.guitartabcreator.com
Guitar Tab Creator is intended to store guitar tab created through the tool. It currently does not support in-line text editing. Any text you place in here will be lost. If you need to comment on your tab, please use the "Tab Notes" section located below.