Busted What i go to school for transposed

(/) Slide Up  (\) Slide Down  (h) Hammer On  (p) Pull Off  (b) Bend (r) Release (v) Vibrato
E|-----1--------1--------1-----1--------1--------1-----1--------1--------1-----1--------1--------1--
B|--------1--------1--------------1--------1--------------1--------1--------------1--------1--------
G|--------------------------0--------0--------0-----2--------2--------2-----0--------0--------0-----
D|--3--------3--------3-----------------------------------------------------------------------------
A|--------------------------------------------------------------------------------------------------
E|--------------------------------------------------------------------------------------------------



E|-----1--------1--------1-----1--------1--------1-----1--------1--------1--------
B|--------1--------1--------------1--------1--------------1--------1--------------
G|--------------------------0--------0--------0-----2--------2--------2-----------
D|--3--------3--------3-----------------------------------------------------3--3--
A|--------------------------------------------------------------------------3--3--
E|--------------------------------------------------------------------------1--1--



E|--------------------------
B|--------------------------
G|--------------7--7--5--5--
D|--3--3--8--8--7--7--5--5--
A|--3--3--8--8--5--5--3--3--
E|--1--1--6--6--------------



E|-----1--------1--------1-----1h3p1p0--
B|--1-----1--1-----1--1-----1-----------
G|--------------------------------------
D|--------------------------------------
A|--------------------------------------
E|--------------------------------------
http://www.guitartabcreator.com
Guitar Tab Creator is intended to store guitar tab created through the tool. It currently does not support in-line text editing. Any text you place in here will be lost. If you need to comment on your tab, please use the "Tab Notes" section located below.