Scales

(/) Slide Up  (\) Slide Down  (h) Hammer On  (p) Pull Off  (b) Bend (r) Release (v) Vibrato

E|--------------------------
B|--------------------------
G|-----------------1--3--4--
D|--------1--2--4-----------
A|--2--4--------------------
E|--------------------------



E|--------------------------
B|--------------------------
G|-----------------1--2--4--
D|--------1--2--4-----------
A|--2--4--------------------
E|--------------------------



E|--------------------------
B|--------------------------
G|-----------------1--3--4--
D|--------1--3--4-----------
A|--2--4--------------------
E|--------------------------



E|--------------------------
B|--------------------------
G|--------------------2--4--
D|-----------2--4--5--------
A|--2--4--5-----------------
E|--------------------------



E|--------------------------
B|--------------------------
G|--------------------2--4--
D|-----------2--4--6--------
A|--2--4--5-----------------
E|--------------------------



E|--------------------------
B|--------------------------
G|--------------------2--4--
D|-----------2--4--5--------
A|--2--3--5-----------------
E|--------------------------



E|--------------------------
B|--------------------------
G|--------------------2--4--
D|-----------2--3--5--------
A|--2--3--5-----------------
E|--------------------------



E|--
B|--
G|--
D|--
A|--
E|--
http://www.guitartabcreator.com
Guitar Tab Creator is intended to store guitar tab created through the tool. It currently does not support in-line text editing. Any text you place in here will be lost. If you need to comment on your tab, please use the "Tab Notes" section located below.