NEW2

(/) Slide Up  (\) Slide Down  (h) Hammer On  (p) Pull Off  (b) Bend (r) Release (v) Vibrato


E|--------------------------
B|--------------------------
G|-----------------3--5--6--
D|--------3--4--6-----------
A|--4--6--------------------
E|--------------------------



E|--------------------------
B|--------------------------
G|--------------------------
D|--------------------0--2--
A|-----------0--2--3--------
E|--0--2--3-----------------



E|--------------------------------
B|--------------------------------
G|---------------------9--10--12--
D|----------9--10--12-------------
A|--10--12------------------------
E|--------------------------------



E|--------------------------
B|--------------------------
G|--------------------------
D|--------------------4--6--
A|-----------4--6--8--------
E|--4--6--7-----------------



E|--
B|--
G|--
D|--
A|--
E|--
http://www.guitartabcreator.com
Guitar Tab Creator is intended to store guitar tab created through the tool. It currently does not support in-line text editing. Any text you place in here will be lost. If you need to comment on your tab, please use the "Tab Notes" section located below.