New

(/) Slide Up  (\) Slide Down  (h) Hammer On  (p) Pull Off  (b) Bend (r) Release (v) Vibrato


E|--------------------------
B|--------------------------
G|--------------------------
D|--------------------3--5--
A|-----------3--5--6--------
E|--3--5--6-----------------



E|--------------------------
B|--------------------------
G|-----------------4--5--7--
D|--------4--5--7-----------
A|--5--7--------------------
E|--------------------------



E|--------------------------
B|--------------------------
G|--------------------0--2--
D|-----------0--2--4--------
A|--0--2--3-----------------
E|--------------------------



E|--
B|--
G|--
D|--
A|--
E|--
http://www.guitartabcreator.com
Guitar Tab Creator is intended to store guitar tab created through the tool. It currently does not support in-line text editing. Any text you place in here will be lost. If you need to comment on your tab, please use the "Tab Notes" section located below.